Segítünk ajándékozni

Örülünk, ha tudunk ajándék ötletet adni, vagy olcsó beszerzési helyet javasolni a karácsonyi ajándék vásárláshoz!

Gitár kiegészítők

Gitár effektek

Gitárok

Gitár tartozékok

Stúdió- és színpad-technika

Kikapcsolódás

MINDEZEKET ITT TUDOD MEGVENNI JÓ ÁRON!

(tovább olvasom…)

Metál Karácsony

Categories: Napi jó zene
Comments: No Comments
Published on: 2014.12.27.

Karácsony után picit más, nem annyira meghitt stílusban jöjjön a Marry Christmas, jó effektekkel és ügyes tapping technikával:

(tovább olvasom…)

BOLDOG, MEGHITT KARÁCSONYT kíván a GitarPengeto.hu

Categories: Napi jó zene
Comments: No Comments
Published on: 2014.12.24.

A GitarPengeto.hu ezzel a karácsonyi bluegrass stílusú dallammal kíván minden kedves GitárTpengetőnek és Látogatónak NAGYON BOLDOG, MEGHITT SZÉP KARÁCSONYT!

gitarpengetohu_karacsonyfa

Csendes éj gitárral

Categories: Gyerekdalok
Comments: No Comments
Published on: 2013.12.24.

Ma este ez a dal minden gitáron meg fog szólalni remélhetőleg, egy kis segítség hozzá, hogyan csináld jól.

Kellemes karácsonyt kíván a GitárPengető.hu minden Kedves Gitárt pengetőnek!

 

G dúr bontva
-------3-----------3-------|-------3-----------3-------|
-----0---0-------0---0-----|-----0---0-------0---0-----|
---0-------0---0-------0---|---0-------0---0-------0---|
---------------------------|---------------------------|
---------------------------|---------------------------|
-3-----------3-------------|-3-----------3-------------|
 Csendes éj,                 szentséges éj,
D és D7 bontva               G és G7 bontva
-------2-----------2-------|-------3-----------1-------|
-----3---3-------1---1-----|-----0---0-------0---0-----|
---2-------2---2-------2---|---0-------0---0-------0---|
-0-----------0-------------|---------------------------|
---------------------------|---------------------------|
---------------------------|-3-----------3-------------|
 A világ                     álma mély,
C dúr bontva               G dúr bontva
-------0-----------0-------|-------3-------------------|
-----1---1-------1---1-----|-----0---0-----------------|
---0-------0---0-------0---|---0-------0---------------|
---------------------------|---------------0---0---0---|
-3-----------3-------------|-----------------0---2-----|
---------------------------|-3-----------3-------------|
 Nincs fent más, csak a      drága szent pár,
C dúr bontva               G dúr bontva
-------0-------------------|-------3-------------------|
-----1---1-----------------|-----0---0-----------------|
---0-------0-----0---0---0-|---0-------0---------------|
---------------------------|---------------0---0---0---|
-3-------------3---2---0---|-----------------2---3-----|
---------------------------|-3-----------3-------------|
 várja, gyermeke             alszik-e már,
D és D7 bontva               G dúr bontva
-------2-----------2-------|-------3-----------3-------|
-----3---3-------1---1-----|-----0---0-------0---0-----|
---2-------2---2-------2---|---0-------0---0-------0---|
-0-----------0-------------|---------------------------|
---------------------------|---------------------------|
---------------------------|-3-----------3-------------|
 Szent fiú alud-             jál.
G és D7 bontva               G dúr bontva
-------------------2-------|-------3--------3----------|
-----------------1---1-----|-----0---0------0----------|
---0---0---0---2-------2---|---0-------0----0----------|
-------------0-------------|----------------0----------|
-----2---3-----------------|----------------2----------|
-3-------------------------|-3--------------3----------|
Szent fiú alud-              jál.

 

 

(tovább olvasom…)

Pásztorok, pásztorok

Készülve a karácsonyra, készüljetek a karácsony esti gitározásra is. Mindenki örülni fog és szélesebb mosoly lesz mindenki arcán, ha az ünnepi időszak alatt közös éneklésre buzdítjátok a családot. Az alábbiakban megtaláljátok a Pásztorok, pásztorok akkorjait.

(tovább olvasom…)

Ha én rózsa volnék

Comments: 1 Comment
Published on: 2013.12.07.

Ezt a számot ujjal pengetve a legjobb eljátszani, amihez ajánlott a Muszty-Dobay könyvben leírt TAB, de ha le-fel- -fel- -fel-le-fel módon reszeled, az sem rossz, feltéve, ha szépen tudsz énekelni.
Ha mást nem, kérd meg Koncz Zsuzsát:

 

(tovább olvasom…)

Micimackó

Comments: No Comments
Published on: 2013.12.06.

minel_inkabb_hull_a_ho_annal_inkabb_havazikHa el akarod kápráztatni a környezeted és a gyerekeket, figyelembe véve azt, hogy hamarosan “hull a hó és hózik”, ilyen számokat is el kell tudnod játszani! Hallgasd meg Bródy mestert és gitározd el!

 

(tovább olvasom…)


Translate in website:
Köszönjük, hogy kedveled a GitarPengeto.hu oldalt:
Akkord fogás kereső
A add9


Thomann partnerek vagyunk
Muziker

Takamine GY93-NAT

Partnereink
BAccord_LOGic_banner
Melyik a kedvenc gitár márkád?
Gitáros pólók
gitarpengeto_polo_banner
Kövesd a GitárPengető.hu-t
FacebookGooglePlusRSS
Banner csere logó
jazz-blues-gitarpengeto_banner
Gitárpengető.hu QR kód
gitarpengetohu_static_qr_code