Bölcsidal

Categories: Napi jó zene
Comments: No Comments
Published on: 2014.02.27.

Gitárosoknak egy kis Emil.RuleZ! bossa-nova stílusban, nem éppen egyszerű akkordokkal, ha már a sok 9-esre vagy a 13-asra nézünk sokan megijedhetnek, de ne tegyék. Az ilyen számokkal lehet a legjobban megtanulni ezeket. Ha még jobban kíváncsi vagy, megnézheted milyen hangokból állnak: Em9, C13, H7#5#9, Fm9, bdim7, a 7-es akkordok biztos nem jelentenek problémát, de azokat is megtalálod az akkord táblázatban.

 

 

intro:
  em9			      am7
e---------------------------I---------------------------I
h-7--7-7---7--7--7--7-----7-I-5--5-5---5--5--5--5-----5-I
g-7--7-7---7--7--7--7-----7-I-5--5-5---5--5--5--5-----5-I
d-5--5-5---5--5--5--5---5---I-5--5-5---5--5--5--5---5---I
a-7-----------7-------------I---------------------------I
e--------7------------7-----I-5------0----5-------0-----I

  C13                H7#5#9  H7#5b9
e-10--10-10---10---I----10---8------0---I
h-10--10-10---10---I----8----8----8-----I
g-9---9--9----9----I----8----8--------8-I
d-8---8--8----8----I----7----7----------I
a------------------I--------------------I
e-8--------8-------I-7-------7----------I

  em9	       fm9
e-----------------------I
h-7--7-7---7---------8--I
g-7--7-7---7-------8----I
d-5--5-5---5-----6------I
a-7------------8--------I
e--------7--------------I

Vers:
Az a régi terasz és a nagy folyó...
			     Sok sok emlék sok kakaó...
  em9			      am7
e---------------------------I---------------------------I
h-7--7-7---7--7--7--7-----7-I-5--5-5---5--5--5--5-----5-I
g-7--7-7---7--7--7--7-----7-I-5--5-5---5--5--5--5-----5-I
d-5--5-5---5--5--5--5---5---I-5--5-5---5--5--5--5---5---I
a-7-----------7-------------I---------------------------I
e--------7------------7-----I-5------0----5-------0-----I

  Akkor még persze  tudtuk       mi  a
  C13                H7#5#9  H7#5b9
e-10--10-10---10---I----10---8------0---I
h-10--10-10---10---I----8----8----8-----I
g-9---9--9----9----I----8----8--------8-I
d-8---8--8----8----I----7----7----------I
a------------------I--------------------I
e-8--------8-------I-7-------7----------I

 szép   mi a   jó...
  em9	       fm9
e-----------------I
h-7--7-7---7---8--I
g-7--7-7---7---8--I
d-5--5-5---5---6--I
a-7------------8--I
e--------7--------I

Én megkértem a kezedet...   De te megmostad a fejemet...
  em9			      am7
e---------------------------I---------------------------I
h-7--7-7---7--7--7--7-----7-I-5--5-5---5--5--5--5-----5-I
g-7--7-7---7--7--7--7-----7-I-5--5-5---5--5--5--5-----5-I
d-5--5-5---5--5--5--5---5---I-5--5-5---5--5--5--5---5---I
a-7-----------7-------------I---------------------------I
e--------7------------7-----I-5------0----5-------0-----I

  Így játszottunk míg értünk jött a ma-
  C13                H7#5#9  H7#5b9
e-10--10-10---10---I----10---8------0---I
h-10--10-10---10---I----8----8----8-----I
g-9---9--9----9----I----8----8--------8-I
d-8---8--8----8----I----7----7----------I
a------------------I--------------------I
e-8--------8-------I-7-------7----------I

 ma...
  em9			     
e-----------------------------I
h-7--7-7---7--7--7--7---7---7-I
g-7--7-7---7--7--7--7---7---7-I
d-5--5-5---5--5--5--5---5---5-I
a-7-----------7---------------I
e--------7------------7---6---I

Refrén:

Bölcsibe volna lenni újra jó...
  am7           dm9            hm7           E7    G7/e    E7
e-------------I---------------I------------I---10--/13---\10---I
h-5--5-5---5--I-5--5--5-----5-I-7--7-7---7-I---9---/12---\9----I
g-5--5-5---5--I-5--5--5-----5-I-7--7-7---7-I---7---/10---\7----I
d-5--5-5---5--I-7--7--7---7---I-7--7-7---7-I---9---/12---\9----I
a-------------I-5-------5-----I------------I-------------------I
e-5------5----I---------------I-7------7---I-0---0-------------I

Folyna a sok    sok habos kakaó...
  am7           bdim7		C13		 H7#5#9
e-5--5-5---5--I-6--6--6---6-6-I-10--10-10--10--I-10-------I
h-5--5-5---5--I-5--5--5---5-5-I-10--10-10--10--I-8--------I
g-5--5-5---5--I-6--6--6---6-6-I-9---9--9---9---I-8--------I
d-5--5-5---5--I-5--5--5---5-5-I-8---8--8---8---I-7--------I
a-------------I---------------I----------------I----------I
e-5------5----I-6-------6-----I-8--------8-----I-7--------I

Én lekapartam a vörös gittet
És az édes kis praclid ott is segített
Galacsinná gyűrtük, cél a folyó
De én nem tudtam addig még eldobni
És te ugyanígy tudtál nevetni
Ha elrontottam valamit, ügyetlen voltam

Köszönjük a gitartab.hu-nak!
Kapcsolódó cikkek:

Oszd meg a cikket!

No Comments - Leave a comment

Leave a comment

Az email címet nem tesszük közzé. A kötelező mezőket * karakterrel jelöljük.


× nyolc = 64



Köszönjük, hogy kedveled a GitarPengeto.hu oldalt:
Translate in website:
Akkord fogás kereső
A add9


Thomann partnerek vagyunk
Partnereink
BAccord_LOGic_banner
Melyik a kedvenc gitár márkád?
Gitáros pólók
gitarpengeto_polo_banner
Banner csere logó
jazz-blues-gitarpengeto_banner
Gitárpengető.hu QR kód
gitarpengetohu_static_qr_code