Sétáló basszus gitár játék technika

    A sétáló basszus gitár játék stílus egy fajta kíséreti mód, amely gyakori a barokk zenében és a jazzben.

    A kíséret alatt létrehozunk egy rendszeresen megszólaló hangot, minden (jellemzően) negyednél szólal meg, hasonlóan ahogy a láb üti az ütemet játék közben.

    1. variáció: C | h-hang | Am | g-hang | F | e-hang | G | h és c hang
    2. variáció: C | C/G | C | d-e-f hang | F | F/C | F | e-d hang | C | C/G | C | h-a hang | G | G/D | G | a-h hang
    3. variáció: Em | g-h hang | Am | c-e hang | Em | g-h hang | H7 | h-f# hang

    4. variáció: a lényeg leírva

    -----------------------------|----------------3---------|-------------|-
    -----0------------0----------|----5-----------5---------|---7---------|-
    -----0------------0----------|----5------2--5---2-------|---7------4--|-
    -----0-------2--5---2--------|------2--5----------5--2--|-----4--7----|-
    --------2--5----------5--2---|--3-----------------------|-5-----------|-
    -3---------------------------|--------------------------|-------------|-

    5. variáció:

    ---0-----------|------------|-----------|-------
    ---0--------0--|---------0--|---------0-|-------
    ---0--------0--|---------0--|---------2-|-------
    ------------0--|---------2--|---------1-|-------
    ---------------|-2--5--3----|-2--3--2---|-2p0---
    -0--2--5--3----|------------|-----------|-----3-

    Jazz sétáló basszussal:

     

    A basszusok az akkordokhoz illeszkedő skála hangok keveréke, amely hangok segítenek felvázolni a dal vagy dallam akkordmenetét. Ez a basszus gyakran dallamos formában felváltva emelkedik és süllyed a gitár nyakán több érintőn át. A sétáló basszus használja a skálákat, skála futamokat, ahol az akkord nem cseng ki egyszerre, hanem egymás után szekvenciálisan szólal meg.

     

    (olvasd tovább…)

      Zenei stílusok és képviselőik infografikán

      Ez egy ilyen nap, csupa infografika azoknak, akik vizuálisan tudják elképzelni és összerakni magukban a világ építőköveit a Rock, Hip-hop, Metal, Alternatív és punk, Reggae, Pop, R&B, valamint a House, Axe, Rap, Folk és többi műfaj tekintetében.

      zenei-stilusok-infografikan

      (olvasd tovább…)

        15 és 25 jazz figura

        15 jazz gitár játék figura, amelyek nagyon szépen alkalmazhatók a gitár játékunk színesítésére.

         

        (olvasd tovább…)