Modális, összhangzatos, pentaton és blues skála ujjrendek

Miért is jó megtanulni ezeket a modális, összehangzatos, pentaton és blues skála ujjrendeket megtanulni?

Annak ellenére, hogy sok idő és rengeteg gyakorlás ezeket a skálákat készség szinten elsajátítani, megéri a befektetett energiát, hiszen ez az improvizálás alapja!

Modális skálák ujjrendje:

Moll skála ujjrendje

E   ---|-1-|---|-3-|-4-|---|---
H   ---|-1-|-2-|---|-4-|---|---
G   ---|-1-|---|-3-|---|---|---
D   ---|-1-|---|-3-|---|-4-|---
A   ---|-1-|---|-3-|-4-|---|---
E   ---|-1-|---|-3-|-4-|---|---

Dúr skála ujjrendje

E   ---|-1-|-2-|---|-4-|---|---
H   ---|---|-2-|---|-4-|---|---
G   ---|-1-|---|-3-|-4-|---|---
D   ---|-1-|---|-3-|-4-|---|---
A   ---|-1-|-2-|---|-4-|---|---
E   ---|(1)|-2-|---|-4-|---|---

Nézd meg a többit is és gyakorold be!

(tovább olvasom…)

Modális, összhangzatos, pentaton, blues skálák szerkezete

A modális skálák

A törzshangok más-más hangjáról kezdve megkapjuk a modális skálák hangsorait. Ha az alábbiakat már mind tudod, a következő zeneelméleti oldalon megtalálod, hogyan tudod mindezt a gitáron eljátszani.


          A skála hányadik hangja
--------------------------------------------------------------------
Dúr       1-2-3-4-5-6-7-8
Dór         2-3-4-5-6-7-1-2
Fríg          3-4-5-6-7-1-2-3
Líd             4-5-6-7-1-2-3-4
Mikszolíd         5-6-7-1-2-3-4-5
Eol (Moll)          6-7-1-2-3-4-5-6
Lochriszi             7-1-2-3-4-5-6-7

(tovább olvasom…)


Köszönjük, hogy kedveled a GitarPengeto.hu oldalt:
Translate in website:
Akkord fogás kereső
A add9


Thomann partnerek vagyunk
Partnereink
BAccord_LOGic_banner
Melyik a kedvenc gitár márkád?
Gitáros pólók
gitarpengeto_polo_banner
Banner csere logó
jazz-blues-gitarpengeto_banner
Gitárpengető.hu QR kód
gitarpengetohu_static_qr_code