Akkordszóló – Tangled

Categories: Gyerekdalok
Comments: No Comments
Published on: 2021.02.03.

[Intro]

E -----------0----------------3--------
H ---------------1----------------1----
G ------0----------------0-------------
D ----2---2------------2---2-----------  X2
A --3----------3-----3----------3------
E -------------------------------------

[Versszak 1.]

E --3-----1-----0-----------------0------------------------
H -----------------------0-----3--------1~0--1-------------
G --------------------0----------------------------0-------
D -----------------2-----------3-----3----------2----------
A --3--3-----3--3----------------------------3-------------
E ---------------------------------------------------------
Nap mint nap ültem a sötétben. 

E --3-----1-----0-----------------0------------------------
H -----------------------0-----3--------1~0--1-------------
G --------------------0----------------------------0-------
D -----------------2-----------3-----3----------2----------
A --3--3-----3--3----------------------------3-------------
E ---------------------------------------------------------
Szorongtam, féltem egyedül.

(tovább olvasom…)


Köszönjük, hogy kedveled a GitarPengeto.hu oldalt:

Melyik a kedvenc gitár márkád?
SzavazokSzavazás állása
Gitáros pólók
gitarpengeto_polo_banner