Akkord bontások gyakorlása

A skálákat és az ujjrendeket már másik leckében átvettük, ha mindez még készség szinten nincs is meg, azért improvizálásunk színesítéséhez érdemes megtanulni az alábbi akkord bontásokat is!

Ha nem tudod még, hogy az akkordok milyen hangokból állnak, nézd meg az akkordok hangjai leckét és az összhangzatok leckét is.

Az itt bemutatott akkordbontások a G alaphangról indulnak. Természetesen más alaphangokra is alkalmazható.

Dúr akkordbontás:

Ujjrend:

E   ---|---|-2-|---|---|---|---
H   ---|---|-2-|---|---|---|---
G   ---|---|---|-3-|---|---|---
D   ---|---|---|---|-4-|---|---
A   ---|-1-|---|---|-4-|---|---
E   ---|---|-2-|---|---|---|---

Így gyakorold az akkord bontást a G dúr esetén:

E   -------------2-----------------------------------
H   -----------2---2---------------------------------
G   ---------3-------3-------------------------------
D   -------4-----------4-----------------------------
A   ---1-4---------------4-1-------------------------
E   -2-----------------------2-----------------------

Major 7 akkordbontás:

Ujjrend:

E   ---|-1-|-2-|---|---|---|---
H   ---|---|-2-|---|---|---|---
G   ---|---|---|-3-|---|---|---
D   ---|---|---|-3-|-4-|---|---
A   ---|-1-|---|---|-4-|---|---
E   ---|---|-2-|---|---|---|---

Így gyakorold G major 7 esetén:

E   ---------------1-2-1-----------------------------
H   -------------2-------2---------------------------
G   -----------3-----------3-------------------------
D   -------3-4---------------4-3---------------------
A   ---1-4-----------------------4-1-----------------
E   -2-------------------------------2---------------

Dúr 7 akkordbontás:

Ujjrend:

E   ---|-1-|-2-|---|---|---|---
H   ---|---|-2-|---|---|---|---
G   ---|---|---|-3-|---|---|---
D   ---|---|-2-|---|-4-|---|---
A   ---|-1-|---|---|-4-|---|---
E   ---|---|-2-|---|---|---|---

Így gyakorold G dúr 7 esetén:

E   ---------------1-2-1-----------------------------
H   -------------2-------2---------------------------
G   -----------3-----------3-------------------------
D   -------2-4---------------4-2---------------------
A   ---1-4-----------------------4-1-----------------
E   -2-------------------------------2---------------

Moll (természetes) akkordbontás:

Ujjrend:

E   ---|-1-|---|-3-|-4-|---|---
H   ---|-1-|-2-|---|-4-|---|---
G   ---|-1-|---|-3-|---|---|---
D   ---|-1-|---|-3-|---|-4-|---
A   ---|-1-|---|-3-|-4-|---|---
E   ---|-1-|---|-3-|-4-|---|---

Így gyakorold G moll esetén:

E   -----------------------------1-3-4---------------
H   -----------------------1-2-4---------------------
G   -------------------1-3---------------------------
D   -------------1-3-5-------------------------------
A   -------1-3-4-------------------------------------
E   -1-3-4-------------------------------------------
                     |
                     Figyelj, mert itt ezt kisujjal kell fogni. A 3 és a 4 között van egy fél hang ugrás

Moll akkordbontás:

Ujjrend:

E   ---|-1-|---|---|---|---|---
H   ---|-1-|---|---|---|---|---
G   ---|-1-|---|---|---|---|---
D   ---|---|---|-3-|---|---|---
A   ---|---|---|-3-|---|---|---
E   ---|-1-|---|---|-4-|---|---

Így gyakorold G moll esetén:

E   -------------1------------------------------------
H   -----------1--1-----------------------------------
G   ---------1------1---------------------------------
D   -------3----------3-------------------------------
A   -----3--------------3-----------------------------
E   -1-4------------------4-1-------------------------

Moll 7 akkordbontás:

Ujjrend:

E   ---|-1-|---|---|---|---|---
H   ---|-1-|---|---|-4-|---|---
G   ---|-1-|---|---|---|---|---
D   ---|-1-|---|-3-|---|---|---
A   ---|---|---|-3-|---|---|---
E   ---|-1-|---|---|-4-|---|---

Így gyakorold G moll 7 esetén:

E   -----------------1--------------------------------
H   -------------1-4---4-1----------------------------
G   -----------1-----------1--------------------------
D   -------1-3---------------3-1----------------------
A   -----3-----------------------3--------------------
E   -1-4---------------------------4-1----------------

Félszűkített (m7 5b vagy m7-5) akkordbontás:

Ujjrend:

E   ---|-1-|---|---|---|-4-|---
H   ---|---|---|-2-|---|---|---
G   ---|---|-1-|---|-3-|---|---
D   ---|---|---|-2-|---|---|---
A   ---|---|-1-|---|---|-4-|---
E   ---|-1-|---|---|---|-4-|---

Így gyakorold G félszűkített = Gm7 b5 vagy másként írva Gm5-7 akkord esetén:

E   -----------------3-7-3----------------------------
H   ---------------5-------5--------------------------
G   -----------4-6-----------6-4----------------------
D   ---------5-------------------5--------------------
A   -----4-7-----------------------7-4----------------
E   -3-7-------------------------------7-3------------

Szűkített akkordbontás:

Ujjrend:

E   ---|---|---|---|-1-|---|---|-4-
H   ---|---|---|-1-|---|---|-4-|---
G   ---|---|---|---|-2-|---|---|---
D   ---|---|---|-1-|---|---|-4-|---
A   ---|---|-1-|---|---|-4-|---|---
E   ---|-1-|---|---|---|-4-|---|---

Így gyakorold G szűkített akkord esetén:

E   -------------------6-9-6--------------------------
H   ---------------5-8-------8-5----------------------
G   -------------6---------------6--------------------
D   ---------5-8-------------------8-5----------------
A   -----4-7---------------------------7-4------------
E   -3-7-----------------------------------7-3--------
No Comments - Leave a comment

Vélemény, hozzászólás?

Az email címet nem tesszük közzé. A kötelező mezőket * karakterrel jelöltük

*


6 − négy =