Sétáló basszus gitár játék technika

A sétáló basszus gitár játék stílus egy fajta kíséreti mód, amely gyakori a barokk zenében és a jazzben.

A kíséret alatt létrehozunk egy rendszeresen megszólaló hangot, minden (jellemzően) negyednél szólal meg, hasonlóan ahogy a láb üti az ütemet játék közben.

1. variáció: C | h-hang | Am | g-hang | F | e-hang | G | h és c hang
2. variáció: C | C/G | C | d-e-f hang | F | F/C | F | e-d hang | C | C/G | C | h-a hang | G | G/D | G | a-h hang
3. variáció: Em | g-h hang | Am | c-e hang | Em | g-h hang | H7 | h-f# hang

4. variáció: a lényeg leírva

-----------------------------|----------------3---------|-------------|-
-----0------------0----------|----5-----------5---------|---7---------|-
-----0------------0----------|----5------2--5---2-------|---7------4--|-
-----0-------2--5---2--------|------2--5----------5--2--|-----4--7----|-
--------2--5----------5--2---|--3-----------------------|-5-----------|-
-3---------------------------|--------------------------|-------------|-

5. variáció:

---0-----------|------------|-----------|-------
---0--------0--|---------0--|---------0-|-------
---0--------0--|---------0--|---------2-|-------
------------0--|---------2--|---------1-|-------
---------------|-2--5--3----|-2--3--2---|-2p0---
-0--2--5--3----|------------|-----------|-----3-

Jazz sétáló basszussal:

 

A basszusok az akkordokhoz illeszkedő skála hangok keveréke, amely hangok segítenek felvázolni a dal vagy dallam akkordmenetét. Ez a basszus gyakran dallamos formában felváltva emelkedik és süllyed a gitár nyakán több érintőn át. A sétáló basszus használja a skálákat, skála futamokat, ahol az akkord nem cseng ki egyszerre, hanem egymás után szekvenciálisan szólal meg.

 

Ezen kívül használ kromatikus futamokat, nem funkcionális akkordokat, amely nem illeszkedik a harmonikus keretbe, más akkord tonalitású sémákat IV-V-I. Az akkordok közötti basszus játékot természetesen kitöltheti egy basszeros, a nagybőgős, egy zongora, egy Hammond orgona, tuba, vagy egyéb más hangszerek is.
Ez a példa nem túl könnyű, de szépen példázza miről van szó:

 Bbmaj7 G7#9               Cm7      F9           Bbmaj7 G7#5     Cm9   F13b9
---------------------|------------------------|-----------------|--------------
-6---------11--------|-----8--------8---------|--6--------4-----|--3-----3-----
-7---------10--------|-----8--------8---------|--7--------4-----|--3-----2-----
-7----------9--------|-----8--------7---------|--7--------3-----|--1-----1-----
----9---10-----------|--------9--8------------|--------------4--|--3-----------
-6-------------10----|--8---------------7-----|--6--4---3-------|-----3--2--0--

 
Ja és persze énekelve is megjelenhet a basszus hang, leggyakrabban a jazz és blues hangokkal, de ők is használják a rock, rockabilly, ska, R&B, gospel, latin, country és még sok egyéb műfajokat is.

 

Hogyan játszunk sétáló basszus technikával:

Swinges sétáló basszus bemutatása a Blue Bossán keresztül:

Jazz Blues sétáló basszussal:

 

1 Comment - Leave a comment
  1. […] Léteznek különböző basszus gitár játék technikák is. […]

Vélemény, hozzászólás?

Az email címet nem tesszük közzé. A kötelező mezőket * karakterrel jelöltük

*


− 3 = négy