Arpeggio, mint díszítő elem

Comments: No Comments
Published on: 2019.08.11.

Az arpeggio nem csupán a gitárosok gyakorlati képzésére alkalmas szerkezet, hanem a zenemű része is lehet.

Az akkord bal oldalán megszakított vagy végigfutó hullámvonallal jelölik, mely a két határhang között húzódik.
A (sweep-picking) technika az, ha két vagy több szomszédos húron egymást követően pengetünk, mindegyiken egy lenyomást használva, amikor lefelé haladunk vagy amikor felfelé visszük a pengetőt. A legtöbb gitáros általában az arpeggiókkal társítja ezt. Először ennek a technikának az elsajátítása a fontos, ezt követően léphetünk az arpeggio-alakzatok megtanulására.

Arpeggio alakzatok:
A pentaton skála hangjai azonban nem nagyon alkalmasak arpeggio-technikára, mert más a skála belső, zeneelméleti szerkezete.
Az arpeggio főként a söprő-pengetéshez köthető technikája minimum 2 vagy több húros. A leggyakoribb arpeggio-futamok 3-4, ritkán 5 húrosak.

Példák a különböző futamokra:

Moll arpeggio:

E||-------------8---12----8----------------||
B||-------10--------------------10---------||
G||--9--------------------------------9----||
D||----------------------------------------||
A||----------------------------------------||
E||----------------------------------------||
E||------------3----7---3----------------||
B||-------5------------------5-----------||
G||--4----------------------------4------||
D||--------------------------------------||
A||--------------------------------------||
E||--------------------------------------||

Dúr arpeggio:

E||------------7---10---7-------------||
B||-------8------------------8--------||
G||--7---------------------------7----||
D||-----------------------------------||
A||-----------------------------------||
E||-----------------------------------||
E||------------5----8----5---------------||
B||-------6-------------------6----------||
G||--5----------------------------5------||
D||--------------------------------------||
A||--------------------------------------||
E||--------------------------------------||
E||--15-12----------12h15p12----------12-||
B||--------13----13----------13----13----||
G||---------- 12----------------12-------||
D||--------------------------------------||
A||--------------------------------------||
E||--------------------------------------||

p=pull off; h=hammer on

Mit lehet ebből kihozni:

Kapcsolódó cikkek:

Oszd meg a cikket!

No Comments - Leave a comment

Leave a comment

Az email címet nem tesszük közzé. A kötelező mezőket * karakterrel jelöljük.


7 − = hat



Translate in website:
Köszönjük, hogy kedveled a GitarPengeto.hu oldalt:
Akkord fogás kereső
A add9


Thomann partnerek vagyunk
Muziker

Takamine GY93-NAT

Partnereink
BAccord_LOGic_banner
Melyik a kedvenc gitár márkád?
Gitáros pólók
gitarpengeto_polo_banner
Banner csere logó
jazz-blues-gitarpengeto_banner
Gitárpengető.hu QR kód
gitarpengetohu_static_qr_code